música
Buscador

Acorde de Dies Irae - Mägo De Oz

Letra de Dies Irae

Armonía piano: Em C Em C Em

Entra flauta: Em C D G D C Am B7 Em



Em C D G D

He puesto a secar los recuerdos frente al sol

C Am D G D

He puesto a tender la nostalgia del ayer



C D B7 Em (D)

Y no voy a llorar pero no podré olvidar

C D B7 Em

Toda la desolación que los dioses trajeron del mar



Em D C D Em D C D Em

¡Ohh!



(Entran orquestaciones): [Em (D) C B7] x2



Entra distorsión y acordes en quintas:



Em Em C B7

Dies irae Malleus Maleficarum es (x5)

Maleficarum es



e|---------------------------------------------|

B|---------------------------------------------|

G|---------------------------------------------|

D|--12-10-9----10-9-------9--------------------|

A|----------12------12-10---12-10-9----------9-|

E|----------------------------------12-11-12---|



Punteo y acordes a la vez con otra guitarra: (x3 veces)

G D Am Em C G D

e|--------------------------------1212-14-1515------------------------|

B|-1212---------15-1313-15-12------------------15-12-------------12---|

G|------14-12-14-------------12---------------------12-1414-12-14--14-|

D|-----------------------------14-------------------------------------|

A|--------------------------------------------------------------------|

E|--------------------------------------------------------------------|

Em C B7 (B5 A5 G5 F#5 E5)

Cuando llora el sol sus lágrimas son oro y dolor

Em C B7

Se deshace el hombre blanco se sació y Gaia lloró



C9 D9 G C9

Muere la tierra sudando terror

Em B7 C D Em

La codicia del blanco en nombre de Dios



C9 D9 G C9

El cielo llora hace charcos y yo

Em B7 C D Em D(7)

Siento que se me escapa la vida ante mí



E| G D Am Em

S| No te olvides de mí ahora voy hacia un lugar

T| C G D

R| En donde no existe el miedo donde no vive el adiós

I|

B| G D Am Em

I| Me marcharé montado en la brisa del mar

L| C G D

http://crowdabout.us/acordes/dies-irae-mago-de-oz.php

L| Yo viviré en tu memoria y dormiré en tu corazón

O|



Em C D G

e|------------------------------------------------------------...

B|-12-----12-13-12-13-12-----------------12--12---------------...

G|---14-12--------------14-12-14-12-11-14--14--14-12-11-12-11-...

D|------------------------------------------------------------...

A|------------------------------------------------------------...

E|------------------------------------------------------------...



C Am B7

...----------------------------------|

...----------------------------------|

...12-14-12-14-12-11-----------------|

...------------------14-13-10-9-7-5-2|

...----------------------------------|

...----------------------------------|



Em (D5-E5)(F#5 G5 A5 B5) C (C B5 A5 G5 F#5) B7

Ahora soy volcán, desastre natural, calentamiento global

C9 D9 G C

Ya nadie puede mis gritos ahogar

Em B7 C D Em D

Pues ayer aprendieron de rabia nadar



(ESTRIBILLO)



Em C D G D

Y al amanecer, al morir la oscuridad

C Am B7 Em

Yo regresaré, yo seré el huracán

Em C D G

He puesto a secar mi venganza frente al sol

C Am B7 Em

Llegará al fin la venganza final



Flauta y violín: (E5 B5 (D#5) E5 D5 E5) x2

Solo teclados: (E5 F5 E5 C5 A#5) x3

Guitarra: E5 F5 E5 C5 A#5

(E5 F#5 F5 E5) x6

Flauta y violín ritmo “ska”: (E5 B5 (D#5) E5) x2

Flauta y violin: E5 B5 (D#5) E5

Flauta: E5 B5 F# B5 G5 F#5 B5

E5 F#5 G5 A5



G5 D5 E5 C5 D5 E5

e|--------------------10------------------------------------------------|

B|-12-10---------10-12--12-10-12-10----12-10-------10-------------------|

G|-------11-1212--------------------12-------11-12----12-11---------11-9|

D|----------------------------------------------------------12-9-12-----|x2

A|----------------------------------------------------------------------|

E|----------------------------------------------------------------------|



F#5 G5 A5

¡Ohh!



(ESTRIBILLO)



Em

Dies irae Malleus Maleficarum es (x3)

Discos en los que aparece este acorde: Gaia Iii: Atlantia , Gaia Iii: Atlantia (Edicion Especial)

El acorde de Dies Irae de Mägo De Oz es una versión de la canción original realizada por colaboradores/usuarios de Coveralia.

¿Has encontrado algún error en esta página? Envíanos tu corrección del acorde

Solicitamos su permiso para obtener datos estadísticos de su navegación en esta web, en cumplimiento del Real Decreto-ley 13/2012. Si continúa navegando consideramos que acepta el uso de cookies. OK | Más información